  0
SECTION
  2
HEADER
  9
$ACADVER
  1
AC1014
  9
$ACADMAINTVER
 70
     0
  9
$DWGCODEPAGE
  3
ANSI_1250
  9
$INSBASE
 10
0.0
 20
0.0
 30
0.0
  9
$EXTMIN
 10
-416.0
 20
0.0
 30
-266.0
  9
$EXTMAX
 10
416.0
 20
4.0
 30
266.0
  9
$LIMMIN
 10
0.0
 20
0.0
  9
$LIMMAX
 10
420.0
 20
297.0
  9
$ORTHOMODE
 70
     0
  9
$REGENMODE
 70
     1
  9
$FILLMODE
 70
     0
  9
$QTEXTMODE
 70
     0
  9
$MIRRTEXT
 70
     1
  9
$DRAGMODE
 70
     2
  9
$LTSCALE
 40
1.0
  9
$OSMODE
 70
    44
  9
$ATTMODE
 70
     2
  9
$TEXTSIZE
 40
100.0
  9
$TRACEWID
 40
1.0
  9
$TEXTSTYLE
  7
ROMANS
  9
$CLAYER
  8
0
  9
$CELTYPE
  6
CONTINUOUS
  9
$CECOLOR
 62
   256
  9
$CELTSCALE
 40
1.0
  9
$DELOBJ
 70
     1
  9
$DISPSILH
 70
     0
  9
$DIMSCALE
 40
50.0
  9
$DIMASZ
 40
2.0
  9
$DIMEXO
 40
0.625
  9
$DIMDLI
 40
3.75
  9
$DIMRND
 40
1.0
  9
$DIMDLE
 40
0.0
  9
$DIMEXE
 40
1.0
  9
$DIMTP
 40
0.0
  9
$DIMTM
 40
0.0
  9
$DIMTXT
 40
2.5
  9
$DIMCEN
 40
-100.0
  9
$DIMTSZ
 40
0.0
  9
$DIMTOL
 70
     0
  9
$DIMLIM
 70
     0
  9
$DIMTIH
 70
     0
  9
$DIMTOH
 70
     0
  9
$DIMSE1
 70
     0
  9
$DIMSE2
 70
     0
  9
$DIMTAD
 70
     1
  9
$DIMZIN
 70
     8
  9
$DIMBLK
  1

  9
$DIMASO
 70
     1
  9
$DIMSHO
 70
     1
  9
$DIMPOST
  1

  9
$DIMAPOST
  1

  9
$DIMALT
 70
     0
  9
$DIMALTD
 70
     4
  9
$DIMALTF
 40
0.0394
  9
$DIMLFAC
 40
1.0
  9
$DIMTOFL
 70
     1
  9
$DIMTVP
 40
2.0
  9
$DIMTIX
 70
     0
  9
$DIMSOXD
 70
     0
  9
$DIMSAH
 70
     1
  9
$DIMBLK1
  1
_OBLIQUE
  9
$DIMBLK2
  1
_OBLIQUE
  9
$DIMSTYLE
  2
STANEK
  9
$DIMCLRD
 70
     4
  9
$DIMCLRE
 70
     4
  9
$DIMCLRT
 70
     4
  9
$DIMTFAC
 40
2.2
  9
$DIMGAP
 40
0.625
  9
$DIMJUST
 70
     0
  9
$DIMSD1
 70
     0
  9
$DIMSD2
 70
     0
  9
$DIMTOLJ
 70
     1
  9
$DIMTZIN
 70
     8
  9
$DIMALTZ
 70
     8
  9
$DIMALTTZ
 70
     8
  9
$DIMFIT
 70
     5
  9
$DIMUPT
 70
     0
  9
$DIMUNIT
 70
     2
  9
$DIMDEC
 70
     4
  9
$DIMTDEC
 70
     4
  9
$DIMALTU
 70
     2
  9
$DIMALTTD
 70
     4
  9
$DIMTXSTY
  7
ROMANS
  9
$DIMAUNIT
 70
     0
  9
$LUNITS
 70
     2
  9
$LUPREC
 70
     4
  9
$SKETCHINC
 40
1.0
  9
$FILLETRAD
 40
10.0
  9
$AUNITS
 70
     0
  9
$AUPREC
 70
     0
  9
$MENU
  1
.
  9
$ELEVATION
 40
0.0
  9
$PELEVATION
 40
0.0
  9
$THICKNESS
 40
0.0
  9
$LIMCHECK
 70
     0
  9
$BLIPMODE
 70
     0
  9
$CHAMFERA
 40
10.0
  9
$CHAMFERB
 40
10.0
  9
$CHAMFERC
 40
0.0
  9
$CHAMFERD
 40
0.0
  9
$SKPOLY
 70
     0
  9
$TDCREATE
 40
2450990.465911806
  9
$TDUPDATE
 40
2453310.752007315
  9
$TDINDWG
 40
5.0300975810
  9
$TDUSRTIMER
 40
5.0300975810
  9
$USRTIMER
 70
     1
  9
$ANGBASE
 50
0.0
  9
$ANGDIR
 70
     0
  9
$PDMODE
 70
     3
  9
$PDSIZE
 40
25.0
  9
$PLINEWID
 40
0.0
  9
$COORDS
 70
     1
  9
$SPLFRAME
 70
     0
  9
$SPLINETYPE
 70
     6
  9
$SPLINESEGS
 70
     8
  9
$ATTDIA
 70
     0
  9
$ATTREQ
 70
     1
  9
$HANDLING
 70
     1
  9
$HANDSEED
  5
58F
  9
$SURFTAB1
 70
    12
  9
$SURFTAB2
 70
    12
  9
$SURFTYPE
 70
     6
  9
$SURFU
 70
     6
  9
$SURFV
 70
     6
  9
$UCSNAME
  2

  9
$UCSORG
 10
0.0
 20
0.0
 30
0.0
  9
$UCSXDIR
 10
1.0
 20
0.0
 30
0.0
  9
$UCSYDIR
 10
0.0
 20
1.0
 30
0.0
  9
$PUCSNAME
  2

  9
$PUCSORG
 10
0.0
 20
0.0
 30
0.0
  9
$PUCSXDIR
 10
1.0
 20
0.0
 30
0.0
  9
$PUCSYDIR
 10
0.0
 20
1.0
 30
0.0
  9
$USERI1
 70
    50
  9
$USERI2
 70
   990
  9
$USERI3
 70
     2
  9
$USERI4
 70
     2
  9
$USERI5
 70
     6
  9
$USERR1
 40
281.0
  9
$USERR2
 40
321.0
  9
$USERR3
 40
0.0
  9
$USERR4
 40
0.0
  9
$USERR5
 40
0.0
  9
$WORLDVIEW
 70
     1
  9
$SHADEDGE
 70
     3
  9
$SHADEDIF
 70
    70
  9
$TILEMODE
 70
     1
  9
$MAXACTVP
 70
    48
  9
$PINSBASE
 10
0.0
 20
0.0
 30
0.0
  9
$PLIMCHECK
 70
     0
  9
$PEXTMIN
 10
1.000000E+20
 20
1.000000E+20
 30
1.000000E+20
  9
$PEXTMAX
 10
-1.000000E+20
 20
-1.000000E+20
 30
-1.000000E+20
  9
$PLIMMIN
 10
0.0
 20
0.0
  9
$PLIMMAX
 10
420.0
 20
297.0
  9
$UNITMODE
 70
     0
  9
$VISRETAIN
 70
     1
  9
$PLINEGEN
 70
     0
  9
$PSLTSCALE
 70
     1
  9
$TREEDEPTH
 70
  3020
  9
$PICKSTYLE
 70
     1
  9
$CMLSTYLE
  2
STANDARD
  9
$CMLJUST
 70
     0
  9
$CMLSCALE
 40
1.0
  9
$PROXYGRAPHICS
 70
     1
  9
$MEASUREMENT
 70
     0
  0
ENDSEC
  0
SECTION
  2
CLASSES
  0
CLASS
  1
DICTIONARYVAR
  2
AcDbDictionaryVar
  3
"AutoCAD"
 90
        0
280
     0
281
     0
  0
CLASS
  1
LWPOLYLINE
  2
AcDbPolyline
  3
"AutoCAD"
 90
        0
280
     0
281
     1
  0
ENDSEC
  0
SECTION
  2
TABLES
  0
TABLE
  2
VPORT
  5
12
100
AcDbSymbolTable
 70
     2
  0
VPORT
  5
58E
100
AcDbSymbolTableRecord
100
AcDbViewportTableRecord
  2
*ACTIVE
 70
     0
 10
0.0
 20
0.0
 11
1.0
 21
1.0
 12
0.710688
 22
0.69853
 13
0.0
 23
0.0
 14
10.0
 24
10.0
 15
10.0
 25
10.0
 16
1.41851
 26
-3.731405
 36
1.608064
 17
0.0
 27
0.0
 37
0.0
 40
612.836545
 41
1.650104
 42
50.0
 43
0.0
 44
0.0
 50
0.0
 51
0.0
 71
     0
 72
   100
 73
     1
 74
     1
 75
     0
 76
     0
 77
     0
 78
     0
  0
ENDTAB
  0
TABLE
  2
LTYPE
  5
D
100
AcDbSymbolTable
 70
     1
  0
LTYPE
  5
E
100
AcDbSymbolTableRecord
100
AcDbLinetypeTableRecord
  2
BYBLOCK
 70
     0
  3

 72
    65
 73
     0
 40
0.0
  0
LTYPE
  5
F
100
AcDbSymbolTableRecord
100
AcDbLinetypeTableRecord
  2
BYLAYER
 70
     0
  3

 72
    65
 73
     0
 40
0.0
  0
LTYPE
  5
5
100
AcDbSymbolTableRecord
100
AcDbLinetypeTableRecord
  2
CONTINUOUS
 70
     0
  3
Solid line
 72
    65
 73
     0
 40
0.0
  0
ENDTAB
  0
TABLE
  2
LAYER
  5
A
100
AcDbSymbolTable
 70
     2
  0
LAYER
  5
4
100
AcDbSymbolTableRecord
100
AcDbLayerTableRecord
  2
0
 70
     0
 62
     7
  6
CONTINUOUS
  0
LAYER
  5
58
100
AcDbSymbolTableRecord
100
AcDbLayerTableRecord
  2
DEFPOINTS
 70
     0
 62
     7
  6
CONTINUOUS
  0
ENDTAB
  0
TABLE
  2
STYLE
  5
B
100
AcDbSymbolTable
 70
     2
  0
STYLE
  5
C
100
AcDbSymbolTableRecord
100
AcDbTextStyleTableRecord
  2
STANDARD
 70
     0
 40
0.0
 41
0.8
 50
0.0
 71
     0
 42
2.5
  3
txt.shx
  4

  0
STYLE
  5
1C
100
AcDbSymbolTableRecord
100
AcDbTextStyleTableRecord
  2
ROMANS
 70
     0
 40
100.0
 41
0.8
 50
0.0
 71
     0
 42
100.0
  3
romans.shx
  4

  0
ENDTAB
  0
TABLE
  2
VIEW
  5
10
100
AcDbSymbolTable
 70
     0
  0
ENDTAB
  0
TABLE
  2
UCS
  5
11
100
AcDbSymbolTable
 70
     0
  0
ENDTAB
  0
TABLE
  2
APPID
  5
14
100
AcDbSymbolTable
 70
     1
  0
APPID
  5
15
100
AcDbSymbolTableRecord
100
AcDbRegAppTableRecord
  2
ACAD
 70
     0
  0
ENDTAB
  0
TABLE
  2
DIMSTYLE
  5
16
100
AcDbSymbolTable
 70
     1
  0
DIMSTYLE
105
1E
100
AcDbSymbolTableRecord
100
AcDbDimStyleTableRecord
  2
STANEK
 70
     0
  3

  4

  5

  6
_OBLIQUE
  7
_OBLIQUE
 40
0.0
 41
2.0
 42
0.625
 43
3.75
 44
1.0
 45
1.0
 46
0.0
 47
0.0
 48
0.0
140
2.2
141
-100.0
142
0.0
143
0.0394
144
2.2
145
2.0
146
2.2
147
0.625
 71
     0
 72
     0
 73
     0
 74
     0
 75
     0
 76
     0
 77
     1
 78
     8
170
     0
171
     4
172
     1
173
     1
174
     0
175
     0
176
     1
177
     1
178
     1
270
     2
271
     4
272
     4
273
     2
274
     4
340
1C
275
     0
280
     0
281
     0
282
     0
283
     1
284
     8
285
     8
286
     8
287
     5
288
     0
  0
ENDTAB
  0
TABLE
  2
BLOCK_RECORD
  5
1
100
AcDbSymbolTable
 70
     8
  0
BLOCK_RECORD
  5
2
100
AcDbSymbolTableRecord
100
AcDbBlockTableRecord
  2
*MODEL_SPACE
  0
BLOCK_RECORD
  5
7
100
AcDbSymbolTableRecord
100
AcDbBlockTableRecord
  2
*PAPER_SPACE
  0
BLOCK_RECORD
  5
1F
100
AcDbSymbolTableRecord
100
AcDbBlockTableRecord
  2
_OBLIQUE
  0
BLOCK_RECORD
  5
2DB
100
AcDbSymbolTableRecord
100
AcDbBlockTableRecord
  2
VOMRIZHRAN
  0
BLOCK_RECORD
  5
2E9
100
AcDbSymbolTableRecord
100
AcDbBlockTableRecord
  2
MRIZKA
  0
ENDTAB
  0
ENDSEC
  0
SECTION
  2
BLOCKS
  0
BLOCK
  5
3
100
AcDbEntity
  8
0
 62
     1
100
AcDbBlockBegin
  2
*MODEL_SPACE
 70
     0
 10
0.0
 20
0.0
 30
0.0
  3
*MODEL_SPACE
  1

  0
ENDBLK
  5
6
100
AcDbEntity
  8
0
 62
     1
100
AcDbBlockEnd
  0
BLOCK
  5
8
100
AcDbEntity
 67
     1
  8
0
 62
     1
100
AcDbBlockBegin
  2
*PAPER_SPACE
 70
     0
 10
0.0
 20
0.0
 30
0.0
  3
*PAPER_SPACE
  1

  0
ENDBLK
  5
9
100
AcDbEntity
 67
     1
  8
0
 62
     1
100
AcDbBlockEnd
  0
BLOCK
  5
21
100
AcDbEntity
  8
0
100
AcDbBlockBegin
  2
_OBLIQUE
 70
     0
 10
0.0
 20
0.0
 30
0.0
  3
_OBLIQUE
  1

  0
LINE
  5
20
100
AcDbEntity
  8
0
  6
BYBLOCK
 62
     0
100
AcDbLine
 10
-0.5
 20
-0.5
 30
0.0
 11
0.5
 21
0.5
 31
0.0
  0
ENDBLK
  5
22
100
AcDbEntity
  8
0
100
AcDbBlockEnd
  0
BLOCK
  5
2E7
100
AcDbEntity
  8
0
100
AcDbBlockBegin
  2
VOMRIZHRAN
 70
     0
 10
0.0
 20
0.0
 30
0.0
  3
VOMRIZHRAN
  1

  0
LINE
  5
2DC
100
AcDbEntity
  8
0
  6
CONTINUOUS
100
AcDbLine
 10
-0.4
 20
-0.3
 30
0.0
 11
0.4
 21
-0.3
 31
0.0
  0
LINE
  5
2DD
100
AcDbEntity
  8
0
  6
CONTINUOUS
100
AcDbLine
 10
-0.4
 20
-0.2
 30
0.0
 11
0.4
 21
-0.2
 31
0.0
  0
LINE
  5
2DE
100
AcDbEntity
  8
0
  6
CONTINUOUS
100
AcDbLine
 10
-0.4
 20
-0.1
 30
0.0
 11
0.4
 21
-0.1
 31
0.0
  0
LINE
  5
2DF
100
AcDbEntity
  8
0
  6
CONTINUOUS
100
AcDbLine
 10
-0.4
 20
0.0
 30
0.0
 11
0.4
 21
0.0
 31
0.0
  0
LINE
  5
2E0
100
AcDbEntity
  8
0
  6
CONTINUOUS
100
AcDbLine
 10
-0.4
 20
0.1
 30
0.0
 11
0.4
 21
0.1
 31
0.0
  0
LINE
  5
2E1
100
AcDbEntity
  8
0
  6
CONTINUOUS
100
AcDbLine
 10
-0.4
 20
0.2
 30
0.0
 11
0.4
 21
0.2
 31
0.0
  0
LINE
  5
2E2
100
AcDbEntity
  8
0
  6
CONTINUOUS
100
AcDbLine
 10
-0.4
 20
0.3
 30
0.0
 11
0.4
 21
0.3
 31
0.0
  0
LINE
  5
2E3
100
AcDbEntity
  8
0
  6
CONTINUOUS
100
AcDbLine
 10
-0.5
 20
0.5
 30
0.0
 11
-0.5
 21
-0.5
 31
0.0
  0
LINE
  5
2E4
100
AcDbEntity
  8
0
  6
CONTINUOUS
100
AcDbLine
 10
-0.5
 20
-0.5
 30
0.0
 11
0.5
 21
-0.5
 31
0.0
  0
LINE
  5
2E5
100
AcDbEntity
  8
0
  6
CONTINUOUS
100
AcDbLine
 10
0.5
 20
-0.5
 30
0.0
 11
0.5
 21
0.5
 31
0.0
  0
LINE
  5
2E6
100
AcDbEntity
  8
0
  6
CONTINUOUS
100
AcDbLine
 10
0.5
 20
0.5
 30
0.0
 11
-0.5
 21
0.5
 31
0.0
  0
ENDBLK
  5
2E8
100
AcDbEntity
  8
0
100
AcDbBlockEnd
  0
BLOCK
  5
36D
100
AcDbEntity
  8
0
100
AcDbBlockBegin
  2
MRIZKA
 70
     0
 10
0.0
 20
0.0
 30
0.0
  3
MRIZKA
  1

  0
POINT
  5
2EA
100
AcDbEntity
  8
0
  6
CONTINUOUS
100
AcDbPoint
 10
0.0
 20
0.0
 30
0.0
210
0.0000000000000002
220
-1.0
230
0.0000000000000001
 50
0.0
  0
POLYLINE
  5
2EB
100
AcDbEntity
  8
0
  6
CONTINUOUS
100
AcDbPolygonMesh
 66
     1
 10
0.0
 20
0.0
 30
0.0
 70
    16
 71
     6
 72
     3
  0
VERTEX
  5
2EC
100
AcDbEntity
  8
0
  6
CONTINUOUS
100
AcDbVertex
100
AcDbPolygonMeshVertex
 10
-520.0
 20
0.0
 30
-270.0
 70
    64
  0
VERTEX
  5
2ED
100
AcDbEntity
  8
0
  6
CONTINUOUS
100
AcDbVertex
100
AcDbPolygonMeshVertex
 10
-520.0
 20
5.0
 30
-270.0
 70
    64
  0
VERTEX
  5
2EE
100
AcDbEntity
  8
0
  6
CONTINUOUS
100
AcDbVertex
100
AcDbPolygonMeshVertex
 10
-520.0
 20
5.0
 30
-270.0
 70
    64
  0
VERTEX
  5
2EF
100
AcDbEntity
  8
0
  6
CONTINUOUS
100
AcDbVertex
100
AcDbPolygonMeshVertex
 10
-520.0
 20
0.0
 30
270.0
 70
    64
  0
VERTEX
  5
2F0
100
AcDbEntity
  8
0
  6
CONTINUOUS
100
AcDbVertex
100
AcDbPolygonMeshVertex
 10
-520.0
 20
5.0
 30
270.0
 70
    64
  0
VERTEX
  5
2F1
100
AcDbEntity
  8
0
  6
CONTINUOUS
100
AcDbVertex
100
AcDbPolygonMeshVertex
 10
-520.0
 20
5.0
 30
270.0
 70
    64
  0
VERTEX
  5
2F2
100
AcDbEntity
  8
0
  6
CONTINUOUS
100
AcDbVertex
100
AcDbPolygonMeshVertex
 10
520.0
 20
0.0
 30
270.0
 70
    64
  0
VERTEX
  5
2F3
100
AcDbEntity
  8
0
  6
CONTINUOUS
100
AcDbVertex
100
AcDbPolygonMeshVertex
 10
520.0
 20
5.0
 30
270.0
 70
    64
  0
VERTEX
  5
2F4
100
AcDbEntity
  8
0
  6
CONTINUOUS
100
AcDbVertex
100
AcDbPolygonMeshVertex
 10
-520.0
 20
5.0
 30
270.0
 70
    64
  0
VERTEX
  5
2F5
100
AcDbEntity
  8
0
  6
CONTINUOUS
100
AcDbVertex
100
AcDbPolygonMeshVertex
 10
520.0
 20
0.0
 30
-270.0
 70
    64
  0
VERTEX
  5
2F6
100
AcDbEntity
  8
0
  6
CONTINUOUS
100
AcDbVertex
100
AcDbPolygonMeshVertex
 10
520.0
 20
5.0
 30
-270.0
 70
    64
  0
VERTEX
  5
2F7
100
AcDbEntity
  8
0
  6
CONTINUOUS
100
AcDbVertex
100
AcDbPolygonMeshVertex
 10
-520.0
 20
5.0
 30
-270.0
 70
    64
  0
VERTEX
  5
2F8
100
AcDbEntity
  8
0
  6
CONTINUOUS
100
AcDbVertex
100
AcDbPolygonMeshVertex
 10
520.0
 20
0.0
 30
-270.0
 70
    64
  0
VERTEX
  5
2F9
100
AcDbEntity
  8
0
  6
CONTINUOUS
100
AcDbVertex
100
AcDbPolygonMeshVertex
 10
520.0
 20
0.0
 30
-270.0
 70
    64
  0
VERTEX
  5
2FA
100
AcDbEntity
  8
0
  6
CONTINUOUS
100
AcDbVertex
100
AcDbPolygonMeshVertex
 10
-520.0
 20
0.0
 30
-270.0
 70
    64
  0
VERTEX
  5
2FB
100
AcDbEntity
  8
0
  6
CONTINUOUS
100
AcDbVertex
100
AcDbPolygonMeshVertex
 10
520.0
 20
0.0
 30
270.0
 70
    64
  0
VERTEX
  5
2FC
100
AcDbEntity
  8
0
  6
CONTINUOUS
100
AcDbVertex
100
AcDbPolygonMeshVertex
 10
520.0
 20
0.0
 30
270.0
 70
    64
  0
VERTEX
  5
2FD
100
AcDbEntity
  8
0
  6
CONTINUOUS
100
AcDbVertex
100
AcDbPolygonMeshVertex
 10
-520.0
 20
0.0
 30
270.0
 70
    64
  0
SEQEND
  5
2FE
100
AcDbEntity
  8
0
  6
CONTINUOUS
  0
3DFACE
  5
2FF
100
AcDbEntity
  8
0
  6
CONTINUOUS
100
AcDbFace
 10
500.0
 20
0.0
 30
250.0
 11
500.0
 21
0.0
 31
-250.0
 12
-500.0
 22
0.0
 32
-250.0
 13
-500.0
 23
0.0
 33
250.0
  0
LINE
  5
300
100
AcDbEntity
  8
0
  6
CONTINUOUS
100
AcDbLine
 10
-450.0
 20
0.0
 30
-150.0
 11
400.0
 21
0.0
 31
-150.0
210
0.0000000000000002
220
-1.0
230
0.0000000000000001
  0
LINE
  5
301
100
AcDbEntity
  8
0
  6
CONTINUOUS
100
AcDbLine
 10
-450.0
 20
0.0
 30
-100.0
 11
400.0
 21
0.0
 31
-100.0
210
0.0000000000000002
220
-1.0
230
0.0000000000000001
  0
LINE
  5
302
100
AcDbEntity
  8
0
  6
CONTINUOUS
100
AcDbLine
 10
-450.0
 20
0.0
 30
-50.0
 11
400.0
 21
0.0
 31
-50.0
210
0.0000000000000002
220
-1.0
230
0.0000000000000001
  0
LINE
  5
303
100
AcDbEntity
  8
0
  6
CONTINUOUS
100
AcDbLine
 10
-450.0
 20
0.0
 30
0.0
 11
400.0
 21
0.0
 31
0.0
210
0.0000000000000002
220
-1.0
230
0.0000000000000001
  0
LINE
  5
304
100
AcDbEntity
  8
0
  6
CONTINUOUS
100
AcDbLine
 10
-450.0
 20
0.0
 30
50.0
 11
400.0
 21
0.0
 31
50.0
210
0.0000000000000002
220
-1.0
230
0.0000000000000001
  0
LINE
  5
305
100
AcDbEntity
  8
0
  6
CONTINUOUS
100
AcDbLine
 10
-450.0
 20
0.0
 30
100.0
 11
400.0
 21
0.0
 31
100.0
210
0.0000000000000002
220
-1.0
230
0.0000000000000001
  0
LINE
  5
306
100
AcDbEntity
  8
0
  6
CONTINUOUS
100
AcDbLine
 10
-450.0
 20
0.0
 30
225.0
 11
400.0
 21
0.0
 31
225.0
210
0.0000000000000002
220
-1.0
230
0.0000000000000001
  0
LINE
  5
307
100
AcDbEntity
  8
0
  6
CONTINUOUS
100
AcDbLine
 10
-500.0
 20
0.0
 30
250.0
 11
-500.0
 21
0.0
 31
-250.0
210
0.0000000000000002
220
-1.0
230
0.0000000000000001
  0
LINE
  5
308
100
AcDbEntity
  8
0
  6
CONTINUOUS
100
AcDbLine
 10
-500.0
 20
0.0
 30
-250.0
 11
500.0
 21
0.0
 31
-250.0
210
0.0000000000000002
220
-1.0
230
0.0000000000000001
  0
LINE
  5
309
100
AcDbEntity
  8
0
  6
CONTINUOUS
100
AcDbLine
 10
500.0
 20
0.0
 30
-250.0
 11
500.0
 21
0.0
 31
250.0
210
0.0000000000000002
220
-1.0
230
0.0000000000000001
  0
LINE
  5
30A
100
AcDbEntity
  8
0
  6
CONTINUOUS
100
AcDbLine
 10
500.0
 20
0.0
 30
250.0
 11
-500.0
 21
0.0
 31
250.0
210
0.0000000000000002
220
-1.0
230
0.0000000000000001
  0
LINE
  5
30B
100
AcDbEntity
  8
0
  6
CONTINUOUS
100
AcDbLine
 10
-450.0
 20
0.0
 30
225.0
 11
-450.0
 21
0.0
 31
-150.0
210
0.0000000000000002
220
-1.0
230
0.0000000000000001
  0
LINE
  5
30C
100
AcDbEntity
  8
0
  6
CONTINUOUS
100
AcDbLine
 10
-350.0
 20
0.0
 30
225.0
 11
-350.0
 21
0.0
 31
-150.0
210
0.0000000000000002
220
-1.0
230
0.0000000000000001
  0
LINE
  5
30D
100
AcDbEntity
  8
0
  6
CONTINUOUS
100
AcDbLine
 10
-300.0
 20
0.0
 30
225.0
 11
-300.0
 21
0.0
 31
-150.0
210
0.0000000000000002
220
-1.0
230
0.0000000000000001
  0
LINE
  5
30E
100
AcDbEntity
  8
0
  6
CONTINUOUS
100
AcDbLine
 10
-250.0
 20
0.0
 30
225.0
 11
-250.0
 21
0.0
 31
-150.0
210
0.0000000000000002
220
-1.0
230
0.0000000000000001
  0
LINE
  5
30F
100
AcDbEntity
  8
0
  6
CONTINUOUS
100
AcDbLine
 10
-200.0
 20
0.0
 30
225.0
 11
-200.0
 21
0.0
 31
-150.0
210
0.0000000000000002
220
-1.0
230
0.0000000000000001
  0
LINE
  5
310
100
AcDbEntity
  8
0
  6
CONTINUOUS
100
AcDbLine
 10
-150.0
 20
0.0
 30
225.0
 11
-150.0
 21
0.0
 31
-150.0
210
0.0000000000000002
220
-1.0
230
0.0000000000000001
  0
LINE
  5
311
100
AcDbEntity
  8
0
  6
CONTINUOUS
100
AcDbLine
 10
-100.0
 20
0.0
 30
225.0
 11
-100.0
 21
0.0
 31
-150.0
210
0.0000000000000002
220
-1.0
230
0.0000000000000001
  0
LINE
  5
312
100
AcDbEntity
  8
0
  6
CONTINUOUS
100
AcDbLine
 10
-50.0
 20
0.0
 30
225.0
 11
-50.0
 21
0.0
 31
-150.0
210
0.0000000000000002
220
-1.0
230
0.0000000000000001
  0
LINE
  5
313
100
AcDbEntity
  8
0
  6
CONTINUOUS
100
AcDbLine
 10
0.0
 20
0.0
 30
225.0
 11
0.0
 21
0.0
 31
-150.0
210
0.0000000000000002
220
-1.0
230
0.0000000000000001
  0
LINE
  5
314
100
AcDbEntity
  8
0
  6
CONTINUOUS
100
AcDbLine
 10
50.0
 20
0.0
 30
225.0
 11
50.0
 21
0.0
 31
-150.0
210
0.0000000000000002
220
-1.0
230
0.0000000000000001
  0
LINE
  5
315
100
AcDbEntity
  8
0
  6
CONTINUOUS
100
AcDbLine
 10
100.0
 20
0.0
 30
225.0
 11
100.0
 21
0.0
 31
-150.0
210
0.0000000000000002
220
-1.0
230
0.0000000000000001
  0
LINE
  5
316
100
AcDbEntity
  8
0
  6
CONTINUOUS
100
AcDbLine
 10
150.0
 20
0.0
 30
225.0
 11
150.0
 21
0.0
 31
-150.0
210
0.0000000000000002
220
-1.0
230
0.0000000000000001
  0
LINE
  5
317
100
AcDbEntity
  8
0
  6
CONTINUOUS
100
AcDbLine
 10
200.0
 20
0.0
 30
225.0
 11
200.0
 21
0.0
 31
-150.0
210
0.0000000000000002
220
-1.0
230
0.0000000000000001
  0
LINE
  5
318
100
AcDbEntity
  8
0
  6
CONTINUOUS
100
AcDbLine
 10
250.0
 20
0.0
 30
225.0
 11
250.0
 21
0.0
 31
-150.0
210
0.0000000000000002
220
-1.0
230
0.0000000000000001
  0
LINE
  5
319
100
AcDbEntity
  8
0
  6
CONTINUOUS
100
AcDbLine
 10
300.0
 20
0.0
 30
225.0
 11
300.0
 21
0.0
 31
-150.0
210
0.0000000000000002
220
-1.0
230
0.0000000000000001
  0
LINE
  5
31A
100
AcDbEntity
  8
0
  6
CONTINUOUS
100
AcDbLine
 10
350.0
 20
0.0
 30
225.0
 11
350.0
 21
0.0
 31
-150.0
210
0.0000000000000002
220
-1.0
230
0.0000000000000001
  0
LINE
  5
31B
100
AcDbEntity
  8
0
  6
CONTINUOUS
100
AcDbLine
 10
400.0
 20
0.0
 30
225.0
 11
400.0
 21
0.0
 31
-150.0
210
0.0000000000000002
220
-1.0
230
0.0000000000000001
  0
LINE
  5
31C
100
AcDbEntity
  8
0
  6
CONTINUOUS
100
AcDbLine
 10
400.0
 20
0.0
 30
125.0
 11
-450.0
 21
0.0
 31
125.0
210
0.0
220
-1.0
230
-0.0000000000000002
  0
LINE
  5
31D
100
AcDbEntity
  8
0
  6
CONTINUOUS
100
AcDbLine
 10
400.0
 20
0.0
 30
75.0
 11
-450.0
 21
0.0
 31
75.0
210
0.0
220
-1.0
230
-0.0000000000000002
  0
LINE
  5
31E
100
AcDbEntity
  8
0
  6
CONTINUOUS
100
AcDbLine
 10
400.0
 20
0.0
 30
25.0
 11
-450.0
 21
0.0
 31
25.0
210
0.0
220
-1.0
230
-0.0000000000000002
  0
LINE
  5
31F
100
AcDbEntity
  8
0
  6
CONTINUOUS
100
AcDbLine
 10
400.0
 20
0.0
 30
-25.0
 11
-450.0
 21
0.0
 31
-25.0
210
0.0
220
-1.0
230
-0.0000000000000002
  0
LINE
  5
320
100
AcDbEntity
  8
0
  6
CONTINUOUS
100
AcDbLine
 10
400.0
 20
0.0
 30
-75.0
 11
-450.0
 21
0.0
 31
-75.0
210
0.0
220
-1.0
230
-0.0000000000000002
  0
LINE
  5
321
100
AcDbEntity
  8
0
  6
CONTINUOUS
100
AcDbLine
 10
400.0
 20
0.0
 30
-125.0
 11
-450.0
 21
0.0
 31
-125.0
210
0.0
220
-1.0
230
-0.0000000000000002
  0
LINE
  5
322
100
AcDbEntity
  8
0
  6
CONTINUOUS
100
AcDbLine
 10
400.0
 20
0.0
 30
200.0
 11
-450.0
 21
0.0
 31
200.0
210
0.0
220
-1.0
230
-0.0000000000000002
  0
LINE
  5
323
100
AcDbEntity
  8
0
  6
CONTINUOUS
100
AcDbLine
 10
-450.0
 20
0.0
 30
175.0
 11
400.0
 21
0.0
 31
175.0
210
0.0000000000000002
220
-1.0
230
0.0000000000000001
  0
LINE
  5
324
100
AcDbEntity
  8
0
  6
CONTINUOUS
100
AcDbLine
 10
400.0
 20
0.0
 30
150.0
 11
-450.0
 21
0.0
 31
150.0
210
0.0
220
-1.0
230
-0.0000000000000002
  0
LINE
  5
325
100
AcDbEntity
  8
0
  6
CONTINUOUS
100
AcDbLine
 10
-400.0
 20
0.0
 30
225.0
 11
-400.0
 21
0.0
 31
-150.0
210
0.0000000000000002
220
-1.0
230
0.0000000000000001
  0
LINE
  5
326
100
AcDbEntity
  8
0
  6
CONTINUOUS
100
AcDbLine
 10
-450.0
 20
0.0
 30
-100.0
 11
400.0
 21
0.0
 31
-100.0
210
0.0000000000000002
220
-1.0
230
-0.0000000000000004
  0
LINE
  5
327
100
AcDbEntity
  8
0
  6
CONTINUOUS
100
AcDbLine
 10
-450.0
 20
0.0
 30
-50.0
 11
400.0
 21
0.0
 31
-50.0
210
0.0000000000000002
220
-1.0
230
-0.0000000000000004
  0
LINE
  5
328
100
AcDbEntity
  8
0
  6
CONTINUOUS
100
AcDbLine
 10
400.0
 20
0.0
 30
-125.0
 11
-450.0
 21
0.0
 31
-125.0
210
0.0
220
-1.0
230
-0.0000000000000002
  0
LINE
  5
329
100
AcDbEntity
  8
0
  6
CONTINUOUS
100
AcDbLine
 10
400.0
 20
0.0
 30
-75.0
 11
-450.0
 21
0.0
 31
-75.0
210
0.0
220
-1.0
230
-0.0000000000000002
  0
LINE
  5
32A
100
AcDbEntity
  8
0
  6
CONTINUOUS
100
AcDbLine
 10
400.0
 20
0.0
 30
-25.0
 11
-450.0
 21
0.0
 31
-25.0
210
0.0
220
-1.0
230
-0.0000000000000002
  0
LINE
  5
32B
100
AcDbEntity
  8
0
  6
CONTINUOUS
100
AcDbLine
 10
-450.0
 20
0.0
 30
-225.0
 11
400.0
 21
0.0
 31
-225.0
210
0.0000000000000002
220
-1.0
230
-0.0000000000000004
  0
LINE
  5
32C
100
AcDbEntity
  8
0
  6
CONTINUOUS
100
AcDbLine
 10
400.0
 20
0.0
 30
-200.0
 11
-450.0
 21
0.0
 31
-200.0
210
0.0
220
-1.0
230
-0.0000000000000002
  0
LINE
  5
32D
100
AcDbEntity
  8
0
  6
CONTINUOUS
100
AcDbLine
 10
-450.0
 20
0.0
 30
-175.0
 11
400.0
 21
0.0
 31
-175.0
210
0.0000000000000002
220
-1.0
230
-0.0000000000000004
  0
LINE
  5
32E
100
AcDbEntity
  8
0
  6
CONTINUOUS
100
AcDbLine
 10
400.0
 20
0.0
 30
-150.0
 11
-450.0
 21
0.0
 31
-150.0
210
0.0
220
-1.0
230
-0.0000000000000002
  0
POINT
  5
32F
100
AcDbEntity
  8
0
  6
CONTINUOUS
100
AcDbPoint
 10
0.0
 20
0.0
 30
0.0
210
0.0000000000000002
220
-1.0
230
-0.0000000000000004
 50
0.0
  0
LINE
  5
330
100
AcDbEntity
  8
0
  6
CONTINUOUS
100
AcDbLine
 10
-400.0
 20
0.0
 30
-225.0
 11
-400.0
 21
0.0
 31
150.0
210
0.0000000000000002
220
-1.0
230
-0.0000000000000004
  0
LINE
  5
331
100
AcDbEntity
  8
0
  6
CONTINUOUS
100
AcDbLine
 10
-450.0
 20
0.0
 30
-225.0
 11
-450.0
 21
0.0
 31
150.0
210
0.0000000000000002
220
-1.0
230
-0.0000000000000004
  0
LINE
  5
332
100
AcDbEntity
  8
0
  6
CONTINUOUS
100
AcDbLine
 10
-300.0
 20
0.0
 30
-225.0
 11
-300.0
 21
0.0
 31
150.0
210
0.0000000000000002
220
-1.0
230
-0.0000000000000004
  0
LINE
  5
333
100
AcDbEntity
  8
0
  6
CONTINUOUS
100
AcDbLine
 10
-350.0
 20
0.0
 30
-225.0
 11
-350.0
 21
0.0
 31
150.0
210
0.0000000000000002
220
-1.0
230
-0.0000000000000004
  0
LINE
  5
334
100
AcDbEntity
  8
0
  6
CONTINUOUS
100
AcDbLine
 10
-200.0
 20
0.0
 30
-225.0
 11
-200.0
 21
0.0
 31
150.0
210
0.0000000000000002
220
-1.0
230
-0.0000000000000004
  0
LINE
  5
335
100
AcDbEntity
  8
0
  6
CONTINUOUS
100
AcDbLine
 10
-250.0
 20
0.0
 30
-225.0
 11
-250.0
 21
0.0
 31
150.0
210
0.0000000000000002
220
-1.0
230
-0.0000000000000004
  0
LINE
  5
336
100
AcDbEntity
  8
0
  6
CONTINUOUS
100
AcDbLine
 10
-100.0
 20
0.0
 30
-225.0
 11
-100.0
 21
0.0
 31
150.0
210
0.0000000000000002
220
-1.0
230
-0.0000000000000004
  0
LINE
  5
337
100
AcDbEntity
  8
0
  6
CONTINUOUS
100
AcDbLine
 10
-150.0
 20
0.0
 30
-225.0
 11
-150.0
 21
0.0
 31
150.0
210
0.0000000000000002
220
-1.0
230
-0.0000000000000004
  0
LINE
  5
338
100
AcDbEntity
  8
0
  6
CONTINUOUS
100
AcDbLine
 10
-50.0
 20
0.0
 30
-225.0
 11
-50.0
 21
0.0
 31
150.0
210
0.0000000000000002
220
-1.0
230
-0.0000000000000004
  0
LINE
  5
339
100
AcDbEntity
  8
0
  6
CONTINUOUS
100
AcDbLine
 10
0.0
 20
0.0
 30
-225.0
 11
0.0
 21
0.0
 31
150.0
210
0.0000000000000002
220
-1.0
230
-0.0000000000000004
  0
LINE
  5
33A
100
AcDbEntity
  8
0
  6
CONTINUOUS
100
AcDbLine
 10
50.0
 20
0.0
 30
-225.0
 11
50.0
 21
0.0
 31
150.0
210
0.0000000000000002
220
-1.0
230
-0.0000000000000004
  0
LINE
  5
33B
100
AcDbEntity
  8
0
  6
CONTINUOUS
100
AcDbLine
 10
100.0
 20
0.0
 30
-225.0
 11
100.0
 21
0.0
 31
150.0
210
0.0000000000000002
220
-1.0
230
-0.0000000000000004
  0
LINE
  5
33C
100
AcDbEntity
  8
0
  6
CONTINUOUS
100
AcDbLine
 10
150.0
 20
0.0
 30
-225.0
 11
150.0
 21
0.0
 31
150.0
210
0.0000000000000002
220
-1.0
230
-0.0000000000000004
  0
LINE
  5
33D
100
AcDbEntity
  8
0
  6
CONTINUOUS
100
AcDbLine
 10
250.0
 20
0.0
 30
-225.0
 11
250.0
 21
0.0
 31
150.0
210
0.0000000000000002
220
-1.0
230
-0.0000000000000004
  0
LINE
  5
33E
100
AcDbEntity
  8
0
  6
CONTINUOUS
100
AcDbLine
 10
200.0
 20
0.0
 30
-225.0
 11
200.0
 21
0.0
 31
150.0
210
0.0000000000000002
220
-1.0
230
-0.0000000000000004
  0
LINE
  5
33F
100
AcDbEntity
  8
0
  6
CONTINUOUS
100
AcDbLine
 10
350.0
 20
0.0
 30
-225.0
 11
350.0
 21
0.0
 31
150.0
210
0.0000000000000002
220
-1.0
230
-0.0000000000000004
  0
LINE
  5
340
100
AcDbEntity
  8
0
  6
CONTINUOUS
100
AcDbLine
 10
300.0
 20
0.0
 30
-225.0
 11
300.0
 21
0.0
 31
150.0
210
0.0000000000000002
220
-1.0
230
-0.0000000000000004
  0
LINE
  5
341
100
AcDbEntity
  8
0
  6
CONTINUOUS
100
AcDbLine
 10
400.0
 20
0.0
 30
-225.0
 11
400.0
 21
0.0
 31
150.0
210
0.0000000000000002
220
-1.0
230
-0.0000000000000004
  0
LINE
  5
342
100
AcDbEntity
  8
0
  6
CONTINUOUS
100
AcDbLine
 10
-400.0
 20
0.0
 30
-150.0
 11
450.0
 21
0.0
 31
-150.0
210
0.0
220
-1.0
230
-0.0000000000000002
  0
LINE
  5
343
100
AcDbEntity
  8
0
  6
CONTINUOUS
100
AcDbLine
 10
450.0
 20
0.0
 30
-175.0
 11
-400.0
 21
0.0
 31
-175.0
210
-0.0000000000000002
220
-1.0
230
-0.0000000000000004
  0
LINE
  5
344
100
AcDbEntity
  8
0
  6
CONTINUOUS
100
AcDbLine
 10
-400.0
 20
0.0
 30
-200.0
 11
450.0
 21
0.0
 31
-200.0
210
0.0
220
-1.0
230
-0.0000000000000002
  0
LINE
  5
345
100
AcDbEntity
  8
0
  6
CONTINUOUS
100
AcDbLine
 10
450.0
 20
0.0
 30
-225.0
 11
-400.0
 21
0.0
 31
-225.0
210
-0.0000000000000002
220
-1.0
230
-0.0000000000000004
  0
LINE
  5
346
100
AcDbEntity
  8
0
  6
CONTINUOUS
100
AcDbLine
 10
-400.0
 20
0.0
 30
-25.0
 11
450.0
 21
0.0
 31
-25.0
210
0.0
220
-1.0
230
-0.0000000000000002
  0
LINE
  5
347
100
AcDbEntity
  8
0
  6
CONTINUOUS
100
AcDbLine
 10
-400.0
 20
0.0
 30
-75.0
 11
450.0
 21
0.0
 31
-75.0
210
0.0
220
-1.0
230
-0.0000000000000002
  0
LINE
  5
348
100
AcDbEntity
  8
0
  6
CONTINUOUS
100
AcDbLine
 10
-400.0
 20
0.0
 30
-125.0
 11
450.0
 21
0.0
 31
-125.0
210
0.0
220
-1.0
230
-0.0000000000000002
  0
LINE
  5
349
100
AcDbEntity
  8
0
  6
CONTINUOUS
100
AcDbLine
 10
450.0
 20
0.0
 30
-50.0
 11
-400.0
 21
0.0
 31
-50.0
210
-0.0000000000000002
220
-1.0
230
-0.0000000000000004
  0
LINE
  5
34A
100
AcDbEntity
  8
0
  6
CONTINUOUS
100
AcDbLine
 10
450.0
 20
0.0
 30
-100.0
 11
-400.0
 21
0.0
 31
-100.0
210
-0.0000000000000002
220
-1.0
230
-0.0000000000000004
  0
LINE
  5
34B
100
AcDbEntity
  8
0
  6
CONTINUOUS
100
AcDbLine
 10
450.0
 20
0.0
 30
100.0
 11
-400.0
 21
0.0
 31
100.0
210
-0.0000000000000002
220
-1.0
230
0.0000000000000001
  0
LINE
  5
34C
100
AcDbEntity
  8
0
  6
CONTINUOUS
100
AcDbLine
 10
450.0
 20
0.0
 30
-50.0
 11
-400.0
 21
0.0
 31
-50.0
210
-0.0000000000000002
220
-1.0
230
0.0000000000000001
  0
LINE
  5
34D
100
AcDbEntity
  8
0
  6
CONTINUOUS
100
AcDbLine
 10
450.0
 20
0.0
 30
-100.0
 11
-400.0
 21
0.0
 31
-100.0
210
-0.0000000000000002
220
-1.0
230
0.0000000000000001
  0
LINE
  5
34E
100
AcDbEntity
  8
0
  6
CONTINUOUS
100
AcDbLine
 10
450.0
 20
0.0
 30
-150.0
 11
-400.0
 21
0.0
 31
-150.0
210
-0.0000000000000002
220
-1.0
230
0.0000000000000001
  0
LINE
  5
34F
100
AcDbEntity
  8
0
  6
CONTINUOUS
100
AcDbLine
 10
450.0
 20
0.0
 30
50.0
 11
-400.0
 21
0.0
 31
50.0
210
-0.0000000000000002
220
-1.0
230
0.0000000000000001
  0
LINE
  5
350
100
AcDbEntity
  8
0
  6
CONTINUOUS
100
AcDbLine
 10
450.0
 20
0.0
 30
0.0
 11
-400.0
 21
0.0
 31
0.0
210
-0.0000000000000002
220
-1.0
230
0.0000000000000001
  0
LINE
  5
351
100
AcDbEntity
  8
0
  6
CONTINUOUS
100
AcDbLine
 10
-400.0
 20
0.0
 30
125.0
 11
450.0
 21
0.0
 31
125.0
210
0.0
220
-1.0
230
-0.0000000000000002
  0
LINE
  5
352
100
AcDbEntity
  8
0
  6
CONTINUOUS
100
AcDbLine
 10
-400.0
 20
0.0
 30
75.0
 11
450.0
 21
0.0
 31
75.0
210
0.0
220
-1.0
230
-0.0000000000000002
  0
LINE
  5
353
100
AcDbEntity
  8
0
  6
CONTINUOUS
100
AcDbLine
 10
-400.0
 20
0.0
 30
25.0
 11
450.0
 21
0.0
 31
25.0
210
0.0
220
-1.0
230
-0.0000000000000002
  0
LINE
  5
354
100
AcDbEntity
  8
0
  6
CONTINUOUS
100
AcDbLine
 10
-400.0
 20
0.0
 30
-25.0
 11
450.0
 21
0.0
 31
-25.0
210
0.0
220
-1.0
230
-0.0000000000000002
  0
LINE
  5
355
100
AcDbEntity
  8
0
  6
CONTINUOUS
100
AcDbLine
 10
-400.0
 20
0.0
 30
-75.0
 11
450.0
 21
0.0
 31
-75.0
210
0.0
220
-1.0
230
-0.0000000000000002
  0
LINE
  5
356
100
AcDbEntity
  8
0
  6
CONTINUOUS
100
AcDbLine
 10
-400.0
 20
0.0
 30
-125.0
 11
450.0
 21
0.0
 31
-125.0
210
0.0
220
-1.0
230
-0.0000000000000002
  0
LINE
  5
357
100
AcDbEntity
  8
0
  6
CONTINUOUS
100
AcDbLine
 10
450.0
 20
0.0
 30
225.0
 11
-400.0
 21
0.0
 31
225.0
210
-0.0000000000000002
220
-1.0
230
0.0000000000000001
  0
LINE
  5
358
100
AcDbEntity
  8
0
  6
CONTINUOUS
100
AcDbLine
 10
-400.0
 20
0.0
 30
200.0
 11
450.0
 21
0.0
 31
200.0
210
0.0
220
-1.0
230
-0.0000000000000002
  0
LINE
  5
359
100
AcDbEntity
  8
0
  6
CONTINUOUS
100
AcDbLine
 10
450.0
 20
0.0
 30
175.0
 11
-400.0
 21
0.0
 31
175.0
210
-0.0000000000000002
220
-1.0
230
0.0000000000000001
  0
LINE
  5
35A
100
AcDbEntity
  8
0
  6
CONTINUOUS
100
AcDbLine
 10
-400.0
 20
0.0
 30
150.0
 11
450.0
 21
0.0
 31
150.0
210
0.0
220
-1.0
230
-0.0000000000000002
  0
LINE
  5
35B
100
AcDbEntity
  8
0
  6
CONTINUOUS
100
AcDbLine
 10
50.0
 20
0.0
 30
-225.0
 11
50.0
 21
0.0
 31
150.0
210
-0.0000000000000002
220
-1.0
230
-0.0000000000000004
  0
LINE
  5
35C
100
AcDbEntity
  8
0
  6
CONTINUOUS
100
AcDbLine
 10
150.0
 20
0.0
 30
-225.0
 11
150.0
 21
0.0
 31
150.0
210
-0.0000000000000002
220
-1.0
230
-0.0000000000000004
  0
LINE
  5
35D
100
AcDbEntity
  8
0
  6
CONTINUOUS
100
AcDbLine
 10
100.0
 20
0.0
 30
-225.0
 11
100.0
 21
0.0
 31
150.0
210
-0.0000000000000002
220
-1.0
230
-0.0000000000000004
  0
LINE
  5
35E
100
AcDbEntity
  8
0
  6
CONTINUOUS
100
AcDbLine
 10
250.0
 20
0.0
 30
-225.0
 11
250.0
 21
0.0
 31
150.0
210
-0.0000000000000002
220
-1.0
230
-0.0000000000000004
  0
LINE
  5
35F
100
AcDbEntity
  8
0
  6
CONTINUOUS
100
AcDbLine
 10
200.0
 20
0.0
 30
-225.0
 11
200.0
 21
0.0
 31
150.0
210
-0.0000000000000002
220
-1.0
230
-0.0000000000000004
  0
LINE
  5
360
100
AcDbEntity
  8
0
  6
CONTINUOUS
100
AcDbLine
 10
350.0
 20
0.0
 30
-225.0
 11
350.0
 21
0.0
 31
150.0
210
-0.0000000000000002
220
-1.0
230
-0.0000000000000004
  0
LINE
  5
361
100
AcDbEntity
  8
0
  6
CONTINUOUS
100
AcDbLine
 10
300.0
 20
0.0
 30
-225.0
 11
300.0
 21
0.0
 31
150.0
210
-0.0000000000000002
220
-1.0
230
-0.0000000000000004
  0
LINE
  5
362
100
AcDbEntity
  8
0
  6
CONTINUOUS
100
AcDbLine
 10
450.0
 20
0.0
 30
-225.0
 11
450.0
 21
0.0
 31
150.0
210
-0.0000000000000002
220
-1.0
230
-0.0000000000000004
  0
LINE
  5
363
100
AcDbEntity
  8
0
  6
CONTINUOUS
100
AcDbLine
 10
400.0
 20
0.0
 30
-225.0
 11
400.0
 21
0.0
 31
150.0
210
-0.0000000000000002
220
-1.0
230
-0.0000000000000004
  0
LINE
  5
364
100
AcDbEntity
  8
0
  6
CONTINUOUS
100
AcDbLine
 10
400.0
 20
0.0
 30
225.0
 11
400.0
 21
0.0
 31
-150.0
210
-0.0000000000000002
220
-1.0
230
0.0000000000000001
  0
LINE
  5
365
100
AcDbEntity
  8
0
  6
CONTINUOUS
100
AcDbLine
 10
450.0
 20
0.0
 30
225.0
 11
450.0
 21
0.0
 31
-150.0
210
-0.0000000000000002
220
-1.0
230
0.0000000000000001
  0
LINE
  5
366
100
AcDbEntity
  8
0
  6
CONTINUOUS
100
AcDbLine
 10
300.0
 20
0.0
 30
225.0
 11
300.0
 21
0.0
 31
-150.0
210
-0.0000000000000002
220
-1.0
230
0.0000000000000001
  0
LINE
  5
367
100
AcDbEntity
  8
0
  6
CONTINUOUS
100
AcDbLine
 10
350.0
 20
0.0
 30
225.0
 11
350.0
 21
0.0
 31
-150.0
210
-0.0000000000000002
220
-1.0
230
0.0000000000000001
  0
LINE
  5
368
100
AcDbEntity
  8
0
  6
CONTINUOUS
100
AcDbLine
 10
200.0
 20
0.0
 30
225.0
 11
200.0
 21
0.0
 31
-150.0
210
-0.0000000000000002
220
-1.0
230
0.0000000000000001
  0
LINE
  5
369
100
AcDbEntity
  8
0
  6
CONTINUOUS
100
AcDbLine
 10
250.0
 20
0.0
 30
225.0
 11
250.0
 21
0.0
 31
-150.0
210
-0.0000000000000002
220
-1.0
230
0.0000000000000001
  0
LINE
  5
36A
100
AcDbEntity
  8
0
  6
CONTINUOUS
100
AcDbLine
 10
100.0
 20
0.0
 30
225.0
 11
100.0
 21
0.0
 31
-150.0
210
-0.0000000000000002
220
-1.0
230
0.0000000000000001
  0
LINE
  5
36B
100
AcDbEntity
  8
0
  6
CONTINUOUS
100
AcDbLine
 10
150.0
 20
0.0
 30
225.0
 11
150.0
 21
0.0
 31
-150.0
210
-0.0000000000000002
220
-1.0
230
0.0000000000000001
  0
LINE
  5
36C
100
AcDbEntity
  8
0
  6
CONTINUOUS
100
AcDbLine
 10
50.0
 20
0.0
 30
225.0
 11
50.0
 21
0.0
 31
-150.0
210
-0.0000000000000002
220
-1.0
230
0.0000000000000001
  0
ENDBLK
  5
36E
100
AcDbEntity
  8
0
100
AcDbBlockEnd
  0
ENDSEC
  0
SECTION
  2
ENTITIES
  0
POLYLINE
  5
489
100
AcDbEntity
  8
0
  6
CONTINUOUS
100
AcDbPolygonMesh
 66
     1
 10
0.0
 20
0.0
 30
0.0
 70
    16
 71
     6
 72
     3
  0
VERTEX
  5
48A
100
AcDbEntity
  8
0
  6
CONTINUOUS
100
AcDbVertex
100
AcDbPolygonMeshVertex
 10
-416.0
 20
0.0
 30
-266.0
 70
    64
  0
VERTEX
  5
48B
100
AcDbEntity
  8
0
  6
CONTINUOUS
100
AcDbVertex
100
AcDbPolygonMeshVertex
 10
-416.0
 20
4.0
 30
-266.0
 70
    64
  0
VERTEX
  5
48C
100
AcDbEntity
  8
0
  6
CONTINUOUS
100
AcDbVertex
100
AcDbPolygonMeshVertex
 10
-416.0
 20
4.0
 30
-266.0
 70
    64
  0
VERTEX
  5
48D
100
AcDbEntity
  8
0
  6
CONTINUOUS
100
AcDbVertex
100
AcDbPolygonMeshVertex
 10
-416.0
 20
0.0
 30
266.0
 70
    64
  0
VERTEX
  5
48E
100
AcDbEntity
  8
0
  6
CONTINUOUS
100
AcDbVertex
100
AcDbPolygonMeshVertex
 10
-416.0
 20
4.0
 30
266.0
 70
    64
  0
VERTEX
  5
48F
100
AcDbEntity
  8
0
  6
CONTINUOUS
100
AcDbVertex
100
AcDbPolygonMeshVertex
 10
-416.0
 20
4.0
 30
266.0
 70
    64
  0
VERTEX
  5
490
100
AcDbEntity
  8
0
  6
CONTINUOUS
100
AcDbVertex
100
AcDbPolygonMeshVertex
 10
416.0
 20
0.0
 30
266.0
 70
    64
  0
VERTEX
  5
491
100
AcDbEntity
  8
0
  6
CONTINUOUS
100
AcDbVertex
100
AcDbPolygonMeshVertex
 10
416.0
 20
4.0
 30
266.0
 70
    64
  0
VERTEX
  5
492
100
AcDbEntity
  8
0
  6
CONTINUOUS
100
AcDbVertex
100
AcDbPolygonMeshVertex
 10
-416.0
 20
4.0
 30
266.0
 70
    64
  0
VERTEX
  5
493
100
AcDbEntity
  8
0
  6
CONTINUOUS
100
AcDbVertex
100
AcDbPolygonMeshVertex
 10
416.0
 20
0.0
 30
-266.0
 70
    64
  0
VERTEX
  5
494
100
AcDbEntity
  8
0
  6
CONTINUOUS
100
AcDbVertex
100
AcDbPolygonMeshVertex
 10
416.0
 20
4.0
 30
-266.0
 70
    64
  0
VERTEX
  5
495
100
AcDbEntity
  8
0
  6
CONTINUOUS
100
AcDbVertex
100
AcDbPolygonMeshVertex
 10
-416.0
 20
4.0
 30
-266.0
 70
    64
  0
VERTEX
  5
496
100
AcDbEntity
  8
0
  6
CONTINUOUS
100
AcDbVertex
100
AcDbPolygonMeshVertex
 10
416.0
 20
0.0
 30
-266.0
 70
    64
  0
VERTEX
  5
497
100
AcDbEntity
  8
0
  6
CONTINUOUS
100
AcDbVertex
100
AcDbPolygonMeshVertex
 10
416.0
 20
0.0
 30
-266.0
 70
    64
  0
VERTEX
  5
498
100
AcDbEntity
  8
0
  6
CONTINUOUS
100
AcDbVertex
100
AcDbPolygonMeshVertex
 10
-416.0
 20
0.0
 30
-266.0
 70
    64
  0
VERTEX
  5
499
100
AcDbEntity
  8
0
  6
CONTINUOUS
100
AcDbVertex
100
AcDbPolygonMeshVertex
 10
416.0
 20
0.0
 30
266.0
 70
    64
  0
VERTEX
  5
49A
100
AcDbEntity
  8
0
  6
CONTINUOUS
100
AcDbVertex
100
AcDbPolygonMeshVertex
 10
416.0
 20
0.0
 30
266.0
 70
    64
  0
VERTEX
  5
49B
100
AcDbEntity
  8
0
  6
CONTINUOUS
100
AcDbVertex
100
AcDbPolygonMeshVertex
 10
-416.0
 20
0.0
 30
266.0
 70
    64
  0
SEQEND
  5
49C
100
AcDbEntity
  8
0
  6
CONTINUOUS
  0
3DFACE
  5
49D
100
AcDbEntity
  8
0
  6
CONTINUOUS
100
AcDbFace
 10
400.0
 20
0.0
 30
250.0
 11
400.0
 21
0.0
 31
-250.0
 12
-400.0
 22
0.0
 32
-250.0
 13
-400.0
 23
0.0
 33
250.0
  0
LINE
  5
49E
100
AcDbEntity
  8
0
  6
CONTINUOUS
100
AcDbLine
 10
-360.0
 20
0.0
 30
-120.0
 11
320.0
 21
0.0
 31
-120.0
210
0.0000000000000002
220
-1.0
230
0.0000000000000001
  0
LINE
  5
49F
100
AcDbEntity
  8
0
  6
CONTINUOUS
100
AcDbLine
 10
-360.0
 20
0.0
 30
-80.0
 11
320.0
 21
0.0
 31
-80.0
210
0.0000000000000002
220
-1.0
230
0.0000000000000001
  0
LINE
  5
4A0
100
AcDbEntity
  8
0
  6
CONTINUOUS
100
AcDbLine
 10
-360.0
 20
0.0
 30
-40.0
 11
320.0
 21
0.0
 31
-40.0
210
0.0000000000000002
220
-1.0
230
0.0000000000000001
  0
LINE
  5
4A1
100
AcDbEntity
  8
0
  6
CONTINUOUS
100
AcDbLine
 10
-360.0
 20
0.0
 30
0.0
 11
320.0
 21
0.0
 31
0.0
210
0.0000000000000002
220
-1.0
230
0.0000000000000001
  0
LINE
  5
4A2
100
AcDbEntity
  8
0
  6
CONTINUOUS
100
AcDbLine
 10
-360.0
 20
0.0
 30
40.0
 11
320.0
 21
0.0
 31
40.0
210
0.0000000000000002
220
-1.0
230
0.0000000000000001
  0
LINE
  5
4A3
100
AcDbEntity
  8
0
  6
CONTINUOUS
100
AcDbLine
 10
-360.0
 20
0.0
 30
80.0
 11
320.0
 21
0.0
 31
80.0
210
0.0000000000000002
220
-1.0
230
0.0000000000000001
  0
LINE
  5
4A4
100
AcDbEntity
  8
0
  6
CONTINUOUS
100
AcDbLine
 10
-360.0
 20
0.0
 30
220.0
 11
320.0
 21
0.0
 31
220.0
210
0.0000000000000002
220
-1.0
230
0.0000000000000001
  0
LINE
  5
4A5
100
AcDbEntity
  8
0
  6
CONTINUOUS
100
AcDbLine
 10
-400.0
 20
0.0
 30
250.0
 11
-400.0
 21
0.0
 31
-250.0
210
0.0000000000000002
220
-1.0
230
0.0000000000000001
  0
LINE
  5
4A6
100
AcDbEntity
  8
0
  6
CONTINUOUS
100
AcDbLine
 10
-400.0
 20
0.0
 30
-250.0
 11
400.0
 21
0.0
 31
-250.0
210
0.0000000000000002
220
-1.0
230
0.0000000000000001
  0
LINE
  5
4A7
100
AcDbEntity
  8
0
  6
CONTINUOUS
100
AcDbLine
 10
400.0
 20
0.0
 30
-250.0
 11
400.0
 21
0.0
 31
250.0
210
0.0000000000000002
220
-1.0
230
0.0000000000000001
  0
LINE
  5
4A8
100
AcDbEntity
  8
0
  6
CONTINUOUS
100
AcDbLine
 10
400.0
 20
0.0
 30
250.0
 11
-400.0
 21
0.0
 31
250.0
210
0.0000000000000002
220
-1.0
230
0.0000000000000001
  0
LINE
  5
4A9
100
AcDbEntity
  8
0
  6
CONTINUOUS
100
AcDbLine
 10
-360.0
 20
0.0
 30
220.0
 11
-360.0
 21
0.0
 31
-120.0
210
0.0000000000000002
220
-1.0
230
0.0000000000000001
  0
LINE
  5
4AA
100
AcDbEntity
  8
0
  6
CONTINUOUS
100
AcDbLine
 10
-280.0
 20
0.0
 30
220.0
 11
-280.0
 21
0.0
 31
-120.0
210
0.0000000000000002
220
-1.0
230
0.0000000000000001
  0
LINE
  5
4AB
100
AcDbEntity
  8
0
  6
CONTINUOUS
100
AcDbLine
 10
-240.0
 20
0.0
 30
220.0
 11
-240.0
 21
0.0
 31
-120.0
210
0.0000000000000002
220
-1.0
230
0.0000000000000001
  0
LINE
  5
4AC
100
AcDbEntity
  8
0
  6
CONTINUOUS
100
AcDbLine
 10
-200.0
 20
0.0
 30
220.0
 11
-200.0
 21
0.0
 31
-120.0
210
0.0000000000000002
220
-1.0
230
0.0000000000000001
  0
LINE
  5
4AD
100
AcDbEntity
  8
0
  6
CONTINUOUS
100
AcDbLine
 10
-160.0
 20
0.0
 30
220.0
 11
-160.0
 21
0.0
 31
-120.0
210
0.0000000000000002
220
-1.0
230
0.0000000000000001
  0
LINE
  5
4AE
100
AcDbEntity
  8
0
  6
CONTINUOUS
100
AcDbLine
 10
-120.0
 20
0.0
 30
220.0
 11
-120.0
 21
0.0
 31
-120.0
210
0.0000000000000002
220
-1.0
230
0.0000000000000001
  0
LINE
  5
4AF
100
AcDbEntity
  8
0
  6
CONTINUOUS
100
AcDbLine
 10
-80.0
 20
0.0
 30
220.0
 11
-80.0
 21
0.0
 31
-120.0
210
0.0000000000000002
220
-1.0
230
0.0000000000000001
  0
LINE
  5
4B0
100
AcDbEntity
  8
0
  6
CONTINUOUS
100
AcDbLine
 10
-40.0
 20
0.0
 30
220.0
 11
-40.0
 21
0.0
 31
-120.0
210
0.0000000000000002
220
-1.0
230
0.0000000000000001
  0
LINE
  5
4B1
100
AcDbEntity
  8
0
  6
CONTINUOUS
100
AcDbLine
 10
0.0
 20
0.0
 30
220.0
 11
0.0
 21
0.0
 31
-120.0
210
0.0000000000000002
220
-1.0
230
0.0000000000000001
  0
LINE
  5
4B2
100
AcDbEntity
  8
0
  6
CONTINUOUS
100
AcDbLine
 10
40.0
 20
0.0
 30
220.0
 11
40.0
 21
0.0
 31
-120.0
210
0.0000000000000002
220
-1.0
230
0.0000000000000001
  0
LINE
  5
4B3
100
AcDbEntity
  8
0
  6
CONTINUOUS
100
AcDbLine
 10
80.0
 20
0.0
 30
220.0
 11
80.0
 21
0.0
 31
-120.0
210
0.0000000000000002
220
-1.0
230
0.0000000000000001
  0
LINE
  5
4B4
100
AcDbEntity
  8
0
  6
CONTINUOUS
100
AcDbLine
 10
120.0
 20
0.0
 30
220.0
 11
120.0
 21
0.0
 31
-120.0
210
0.0000000000000002
220
-1.0
230
0.0000000000000001
  0
LINE
  5
4B5
100
AcDbEntity
  8
0
  6
CONTINUOUS
100
AcDbLine
 10
160.0
 20
0.0
 30
220.0
 11
160.0
 21
0.0
 31
-120.0
210
0.0000000000000002
220
-1.0
230
0.0000000000000001
  0
LINE
  5
4B6
100
AcDbEntity
  8
0
  6
CONTINUOUS
100
AcDbLine
 10
200.0
 20
0.0
 30
220.0
 11
200.0
 21
0.0
 31
-120.0
210
0.0000000000000002
220
-1.0
230
0.0000000000000001
  0
LINE
  5
4B7
100
AcDbEntity
  8
0
  6
CONTINUOUS
100
AcDbLine
 10
240.0
 20
0.0
 30
220.0
 11
240.0
 21
0.0
 31
-120.0
210
0.0000000000000002
220
-1.0
230
0.0000000000000001
  0
LINE
  5
4B8
100
AcDbEntity
  8
0
  6
CONTINUOUS
100
AcDbLine
 10
280.0
 20
0.0
 30
220.0
 11
280.0
 21
0.0
 31
-120.0
210
0.0000000000000002
220
-1.0
230
0.0000000000000001
  0
LINE
  5
4B9
100
AcDbEntity
  8
0
  6
CONTINUOUS
100
AcDbLine
 10
320.0
 20
0.0
 30
220.0
 11
320.0
 21
0.0
 31
-120.0
210
0.0000000000000002
220
-1.0
230
0.0000000000000001
  0
LINE
  5
4BA
100
AcDbEntity
  8
0
  6
CONTINUOUS
100
AcDbLine
 10
320.0
 20
0.0
 30
100.0
 11
-360.0
 21
0.0
 31
100.0
210
0.0
220
-1.0
230
-0.0000000000000002
  0
LINE
  5
4BB
100
AcDbEntity
  8
0
  6
CONTINUOUS
100
AcDbLine
 10
320.0
 20
0.0
 30
60.0
 11
-360.0
 21
0.0
 31
60.0
210
0.0
220
-1.0
230
-0.0000000000000002
  0
LINE
  5
4BC
100
AcDbEntity
  8
0
  6
CONTINUOUS
100
AcDbLine
 10
320.0
 20
0.0
 30
20.0
 11
-360.0
 21
0.0
 31
20.0
210
0.0
220
-1.0
230
-0.0000000000000002
  0
LINE
  5
4BD
100
AcDbEntity
  8
0
  6
CONTINUOUS
100
AcDbLine
 10
320.0
 20
0.0
 30
-20.0
 11
-360.0
 21
0.0
 31
-20.0
210
0.0
220
-1.0
230
-0.0000000000000002
  0
LINE
  5
4BE
100
AcDbEntity
  8
0
  6
CONTINUOUS
100
AcDbLine
 10
320.0
 20
0.0
 30
-60.0
 11
-360.0
 21
0.0
 31
-60.0
210
0.0
220
-1.0
230
-0.0000000000000002
  0
LINE
  5
4BF
100
AcDbEntity
  8
0
  6
CONTINUOUS
100
AcDbLine
 10
320.0
 20
0.0
 30
-100.0
 11
-360.0
 21
0.0
 31
-100.0
210
0.0
220
-1.0
230
-0.0000000000000002
  0
LINE
  5
4C0
100
AcDbEntity
  8
0
  6
CONTINUOUS
100
AcDbLine
 10
320.0
 20
0.0
 30
160.0
 11
-360.0
 21
0.0
 31
160.0
210
0.0
220
-1.0
230
-0.0000000000000002
  0
LINE
  5
4C1
100
AcDbEntity
  8
0
  6
CONTINUOUS
100
AcDbLine
 10
-360.0
 20
0.0
 30
140.0
 11
320.0
 21
0.0
 31
140.0
210
0.0000000000000002
220
-1.0
230
0.0000000000000001
  0
LINE
  5
4C2
100
AcDbEntity
  8
0
  6
CONTINUOUS
100
AcDbLine
 10
320.0
 20
0.0
 30
120.0
 11
-360.0
 21
0.0
 31
120.0
210
0.0
220
-1.0
230
-0.0000000000000002
  0
LINE
  5
4C3
100
AcDbEntity
  8
0
  6
CONTINUOUS
100
AcDbLine
 10
-320.0
 20
0.0
 30
220.0
 11
-320.0
 21
0.0
 31
-120.0
210
0.0000000000000002
220
-1.0
230
0.0000000000000001
  0
LINE
  5
4C4
100
AcDbEntity
  8
0
  6
CONTINUOUS
100
AcDbLine
 10
-360.0
 20
0.0
 30
-80.0
 11
320.0
 21
0.0
 31
-80.0
210
0.0000000000000002
220
-1.0
230
-0.0000000000000004
  0
LINE
  5
4C5
100
AcDbEntity
  8
0
  6
CONTINUOUS
100
AcDbLine
 10
-360.0
 20
0.0
 30
-40.0
 11
320.0
 21
0.0
 31
-40.0
210
0.0000000000000002
220
-1.0
230
-0.0000000000000004
  0
LINE
  5
4C6
100
AcDbEntity
  8
0
  6
CONTINUOUS
100
AcDbLine
 10
320.0
 20
0.0
 30
-100.0
 11
-360.0
 21
0.0
 31
-100.0
210
0.0
220
-1.0
230
-0.0000000000000002
  0
LINE
  5
4C7
100
AcDbEntity
  8
0
  6
CONTINUOUS
100
AcDbLine
 10
320.0
 20
0.0
 30
-60.0
 11
-360.0
 21
0.0
 31
-60.0
210
0.0
220
-1.0
230
-0.0000000000000002
  0
LINE
  5
4C8
100
AcDbEntity
  8
0
  6
CONTINUOUS
100
AcDbLine
 10
320.0
 20
0.0
 30
-20.0
 11
-360.0
 21
0.0
 31
-20.0
210
0.0
220
-1.0
230
-0.0000000000000002
  0
LINE
  5
4C9
100
AcDbEntity
  8
0
  6
CONTINUOUS
100
AcDbLine
 10
-360.0
 20
0.0
 30
-180.0
 11
320.0
 21
0.0
 31
-180.0
210
0.0000000000000002
220
-1.0
230
-0.0000000000000004
  0
LINE
  5
4CA
100
AcDbEntity
  8
0
  6
CONTINUOUS
100
AcDbLine
 10
320.0
 20
0.0
 30
-160.0
 11
-360.0
 21
0.0
 31
-160.0
210
0.0
220
-1.0
230
-0.0000000000000002
  0
LINE
  5
4CB
100
AcDbEntity
  8
0
  6
CONTINUOUS
100
AcDbLine
 10
-360.0
 20
0.0
 30
-140.0
 11
320.0
 21
0.0
 31
-140.0
210
0.0000000000000002
220
-1.0
230
-0.0000000000000004
  0
LINE
  5
4CC
100
AcDbEntity
  8
0
  6
CONTINUOUS
100
AcDbLine
 10
320.0
 20
0.0
 30
-120.0
 11
-360.0
 21
0.0
 31
-120.0
210
0.0
220
-1.0
230
-0.0000000000000002
  0
LINE
  5
4CE
100
AcDbEntity
  8
0
  6
CONTINUOUS
100
AcDbLine
 10
-320.0
 20
0.0
 30
-180.0
 11
-320.0
 21
0.0
 31
120.0
210
0.0000000000000002
220
-1.0
230
-0.0000000000000004
  0
LINE
  5
4CF
100
AcDbEntity
  8
0
  6
CONTINUOUS
100
AcDbLine
 10
-360.0
 20
0.0
 30
-180.0
 11
-360.0
 21
0.0
 31
120.0
210
0.0000000000000002
220
-1.0
230
-0.0000000000000004
  0
LINE
  5
4D0
100
AcDbEntity
  8
0
  6
CONTINUOUS
100
AcDbLine
 10
-240.0
 20
0.0
 30
-180.0
 11
-240.0
 21
0.0
 31
120.0
210
0.0000000000000002
220
-1.0
230
-0.0000000000000004
  0
LINE
  5
4D1
100
AcDbEntity
  8
0
  6
CONTINUOUS
100
AcDbLine
 10
-280.0
 20
0.0
 30
-180.0
 11
-280.0
 21
0.0
 31
120.0
210
0.0000000000000002
220
-1.0
230
-0.0000000000000004
  0
LINE
  5
4D2
100
AcDbEntity
  8
0
  6
CONTINUOUS
100
AcDbLine
 10
-160.0
 20
0.0
 30
-180.0
 11
-160.0
 21
0.0
 31
120.0
210
0.0000000000000002
220
-1.0
230
-0.0000000000000004
  0
LINE
  5
4D3
100
AcDbEntity
  8
0
  6
CONTINUOUS
100
AcDbLine
 10
-200.0
 20
0.0
 30
-180.0
 11
-200.0
 21
0.0
 31
120.0
210
0.0000000000000002
220
-1.0
230
-0.0000000000000004
  0
LINE
  5
4D4
100
AcDbEntity
  8
0
  6
CONTINUOUS
100
AcDbLine
 10
-80.0
 20
0.0
 30
-180.0
 11
-80.0
 21
0.0
 31
120.0
210
0.0000000000000002
220
-1.0
230
-0.0000000000000004
  0
LINE
  5
4D5
100
AcDbEntity
  8
0
  6
CONTINUOUS
100
AcDbLine
 10
-120.0
 20
0.0
 30
-180.0
 11
-120.0
 21
0.0
 31
120.0
210
0.0000000000000002
220
-1.0
230
-0.0000000000000004
  0
LINE
  5
4D6
100
AcDbEntity
  8
0
  6
CONTINUOUS
100
AcDbLine
 10
-40.0
 20
0.0
 30
-180.0
 11
-40.0
 21
0.0
 31
120.0
210
0.0000000000000002
220
-1.0
230
-0.0000000000000004
  0
LINE
  5
4D7
100
AcDbEntity
  8
0
  6
CONTINUOUS
100
AcDbLine
 10
0.0
 20
0.0
 30
-180.0
 11
0.0
 21
0.0
 31
120.0
210
0.0000000000000002
220
-1.0
230
-0.0000000000000004
  0
LINE
  5
4D8
100
AcDbEntity
  8
0
  6
CONTINUOUS
100
AcDbLine
 10
40.0
 20
0.0
 30
-180.0
 11
40.0
 21
0.0
 31
120.0
210
0.0000000000000002
220
-1.0
230
-0.0000000000000004
  0
LINE
  5
4D9
100
AcDbEntity
  8
0
  6
CONTINUOUS
100
AcDbLine
 10
80.0
 20
0.0
 30
-180.0
 11
80.0
 21
0.0
 31
120.0
210
0.0000000000000002
220
-1.0
230
-0.0000000000000004
  0
LINE
  5
4DA
100
AcDbEntity
  8
0
  6
CONTINUOUS
100
AcDbLine
 10
120.0
 20
0.0
 30
-180.0
 11
120.0
 21
0.0
 31
120.0
210
0.0000000000000002
220
-1.0
230
-0.0000000000000004
  0
LINE
  5
4DB
100
AcDbEntity
  8
0
  6
CONTINUOUS
100
AcDbLine
 10
200.0
 20
0.0
 30
-180.0
 11
200.0
 21
0.0
 31
120.0
210
0.0000000000000002
220
-1.0
230
-0.0000000000000004
  0
LINE
  5
4DC
100
AcDbEntity
  8
0
  6
CONTINUOUS
100
AcDbLine
 10
160.0
 20
0.0
 30
-180.0
 11
160.0
 21
0.0
 31
120.0
210
0.0000000000000002
220
-1.0
230
-0.0000000000000004
  0
LINE
  5
4DD
100
AcDbEntity
  8
0
  6
CONTINUOUS
100
AcDbLine
 10
280.0
 20
0.0
 30
-180.0
 11
280.0
 21
0.0
 31
120.0
210
0.0000000000000002
220
-1.0
230
-0.0000000000000004
  0
LINE
  5
4DE
100
AcDbEntity
  8
0
  6
CONTINUOUS
100
AcDbLine
 10
240.0
 20
0.0
 30
-180.0
 11
240.0
 21
0.0
 31
120.0
210
0.0000000000000002
220
-1.0
230
-0.0000000000000004
  0
LINE
  5
4DF
100
AcDbEntity
  8
0
  6
CONTINUOUS
100
AcDbLine
 10
320.0
 20
0.0
 30
-180.0
 11
320.0
 21
0.0
 31
120.0
210
0.0000000000000002
220
-1.0
230
-0.0000000000000004
  0
LINE
  5
4E0
100
AcDbEntity
  8
0
  6
CONTINUOUS
100
AcDbLine
 10
-320.0
 20
0.0
 30
-120.0
 11
360.0
 21
0.0
 31
-120.0
210
0.0
220
-1.0
230
-0.0000000000000002
  0
LINE
  5
4E1
100
AcDbEntity
  8
0
  6
CONTINUOUS
100
AcDbLine
 10
360.0
 20
0.0
 30
-140.0
 11
-320.0
 21
0.0
 31
-140.0
210
-0.0000000000000002
220
-1.0
230
-0.0000000000000004
  0
LINE
  5
4E2
100
AcDbEntity
  8
0
  6
CONTINUOUS
100
AcDbLine
 10
-320.0
 20
0.0
 30
-160.0
 11
360.0
 21
0.0
 31
-160.0
210
0.0
220
-1.0
230
-0.0000000000000002
  0
LINE
  5
4E3
100
AcDbEntity
  8
0
  6
CONTINUOUS
100
AcDbLine
 10
360.0
 20
0.0
 30
-180.0
 11
-320.0
 21
0.0
 31
-180.0
210
-0.0000000000000002
220
-1.0
230
-0.0000000000000004
  0
LINE
  5
4E4
100
AcDbEntity
  8
0
  6
CONTINUOUS
100
AcDbLine
 10
-320.0
 20
0.0
 30
-20.0
 11
360.0
 21
0.0
 31
-20.0
210
0.0
220
-1.0
230
-0.0000000000000002
  0
LINE
  5
4E5
100
AcDbEntity
  8
0
  6
CONTINUOUS
100
AcDbLine
 10
-320.0
 20
0.0
 30
-60.0
 11
360.0
 21
0.0
 31
-60.0
210
0.0
220
-1.0
230
-0.0000000000000002
  0
LINE
  5
4E6
100
AcDbEntity
  8
0
  6
CONTINUOUS
100
AcDbLine
 10
-320.0
 20
0.0
 30
-100.0
 11
360.0
 21
0.0
 31
-100.0
210
0.0
220
-1.0
230
-0.0000000000000002
  0
LINE
  5
4E7
100
AcDbEntity
  8
0
  6
CONTINUOUS
100
AcDbLine
 10
360.0
 20
0.0
 30
-40.0
 11
-320.0
 21
0.0
 31
-40.0
210
-0.0000000000000002
220
-1.0
230
-0.0000000000000004
  0
LINE
  5
4E8
100
AcDbEntity
  8
0
  6
CONTINUOUS
100
AcDbLine
 10
360.0
 20
0.0
 30
-80.0
 11
-320.0
 21
0.0
 31
-80.0
210
-0.0000000000000002
220
-1.0
230
-0.0000000000000004
  0
LINE
  5
4E9
100
AcDbEntity
  8
0
  6
CONTINUOUS
100
AcDbLine
 10
360.0
 20
0.0
 30
80.0
 11
-320.0
 21
0.0
 31
80.0
210
-0.0000000000000002
220
-1.0
230
0.0000000000000001
  0
LINE
  5
4EA
100
AcDbEntity
  8
0
  6
CONTINUOUS
100
AcDbLine
 10
360.0
 20
0.0
 30
-40.0
 11
-320.0
 21
0.0
 31
-40.0
210
-0.0000000000000002
220
-1.0
230
0.0000000000000001
  0
LINE
  5
4EB
100
AcDbEntity
  8
0
  6
CONTINUOUS
100
AcDbLine
 10
360.0
 20
0.0
 30
-80.0
 11
-320.0
 21
0.0
 31
-80.0
210
-0.0000000000000002
220
-1.0
230
0.0000000000000001
  0
LINE
  5
4EC
100
AcDbEntity
  8
0
  6
CONTINUOUS
100
AcDbLine
 10
360.0
 20
0.0
 30
-120.0
 11
-320.0
 21
0.0
 31
-120.0
210
-0.0000000000000002
220
-1.0
230
0.0000000000000001
  0
LINE
  5
4ED
100
AcDbEntity
  8
0
  6
CONTINUOUS
100
AcDbLine
 10
360.0
 20
0.0
 30
40.0
 11
-320.0
 21
0.0
 31
40.0
210
-0.0000000000000002
220
-1.0
230
0.0000000000000001
  0
LINE
  5
4EE
100
AcDbEntity
  8
0
  6
CONTINUOUS
100
AcDbLine
 10
360.0
 20
0.0
 30
0.0
 11
-320.0
 21
0.0
 31
0.0
210
-0.0000000000000002
220
-1.0
230
0.0000000000000001
  0
LINE
  5
4EF
100
AcDbEntity
  8
0
  6
CONTINUOUS
100
AcDbLine
 10
-320.0
 20
0.0
 30
100.0
 11
360.0
 21
0.0
 31
100.0
210
0.0
220
-1.0
230
-0.0000000000000002
  0
LINE
  5
4F0
100
AcDbEntity
  8
0
  6
CONTINUOUS
100
AcDbLine
 10
-320.0
 20
0.0
 30
60.0
 11
360.0
 21
0.0
 31
60.0
210
0.0
220
-1.0
230
-0.0000000000000002
  0
LINE
  5
4F1
100
AcDbEntity
  8
0
  6
CONTINUOUS
100
AcDbLine
 10
-320.0
 20
0.0
 30
20.0
 11
360.0
 21
0.0
 31
20.0
210
0.0
220
-1.0
230
-0.0000000000000002
  0
LINE
  5
4F2
100
AcDbEntity
  8
0
  6
CONTINUOUS
100
AcDbLine
 10
-320.0
 20
0.0
 30
-20.0
 11
360.0
 21
0.0
 31
-20.0
210
0.0
220
-1.0
230
-0.0000000000000002
  0
LINE
  5
4F3
100
AcDbEntity
  8
0
  6
CONTINUOUS
100
AcDbLine
 10
-320.0
 20
0.0
 30
-60.0
 11
360.0
 21
0.0
 31
-60.0
210
0.0
220
-1.0
230
-0.0000000000000002
  0
LINE
  5
4F4
100
AcDbEntity
  8
0
  6
CONTINUOUS
100
AcDbLine
 10
-320.0
 20
0.0
 30
-100.0
 11
360.0
 21
0.0
 31
-100.0
210
0.0
220
-1.0
230
-0.0000000000000002
  0
LINE
  5
4F5
100
AcDbEntity
  8
0
  6
CONTINUOUS
100
AcDbLine
 10
360.0
 20
0.0
 30
220.0
 11
-320.0
 21
0.0
 31
220.0
210
-0.0000000000000002
220
-1.0
230
0.0000000000000001
  0
LINE
  5
4F6
100
AcDbEntity
  8
0
  6
CONTINUOUS
100
AcDbLine
 10
-320.0
 20
0.0
 30
160.0
 11
360.0
 21
0.0
 31
160.0
210
0.0
220
-1.0
230
-0.0000000000000002
  0
LINE
  5
4F7
100
AcDbEntity
  8
0
  6
CONTINUOUS
100
AcDbLine
 10
360.0
 20
0.0
 30
140.0
 11
-320.0
 21
0.0
 31
140.0
210
-0.0000000000000002
220
-1.0
230
0.0000000000000001
  0
LINE
  5
4F8
100
AcDbEntity
  8
0
  6
CONTINUOUS
100
AcDbLine
 10
-320.0
 20
0.0
 30
120.0
 11
360.0
 21
0.0
 31
120.0
210
0.0
220
-1.0
230
-0.0000000000000002
  0
LINE
  5
4F9
100
AcDbEntity
  8
0
  6
CONTINUOUS
100
AcDbLine
 10
40.0
 20
0.0
 30
-180.0
 11
40.0
 21
0.0
 31
120.0
210
-0.0000000000000002
220
-1.0
230
-0.0000000000000004
  0
LINE
  5
4FA
100
AcDbEntity
  8
0
  6
CONTINUOUS
100
AcDbLine
 10
120.0
 20
0.0
 30
-180.0
 11
120.0
 21
0.0
 31
120.0
210
-0.0000000000000002
220
-1.0
230
-0.0000000000000004
  0
LINE
  5
4FB
100
AcDbEntity
  8
0
  6
CONTINUOUS
100
AcDbLine
 10
80.0
 20
0.0
 30
-180.0
 11
80.0
 21
0.0
 31
120.0
210
-0.0000000000000002
220
-1.0
230
-0.0000000000000004
  0
LINE
  5
4FC
100
AcDbEntity
  8
0
  6
CONTINUOUS
100
AcDbLine
 10
200.0
 20
0.0
 30
-180.0
 11
200.0
 21
0.0
 31
120.0
210
-0.0000000000000002
220
-1.0
230
-0.0000000000000004
  0
LINE
  5
4FD
100
AcDbEntity
  8
0
  6
CONTINUOUS
100
AcDbLine
 10
160.0
 20
0.0
 30
-180.0
 11
160.0
 21
0.0
 31
120.0
210
-0.0000000000000002
220
-1.0
230
-0.0000000000000004
  0
LINE
  5
4FE
100
AcDbEntity
  8
0
  6
CONTINUOUS
100
AcDbLine
 10
280.0
 20
0.0
 30
-180.0
 11
280.0
 21
0.0
 31
120.0
210
-0.0000000000000002
220
-1.0
230
-0.0000000000000004
  0
LINE
  5
4FF
100
AcDbEntity
  8
0
  6
CONTINUOUS
100
AcDbLine
 10
240.0
 20
0.0
 30
-180.0
 11
240.0
 21
0.0
 31
120.0
210
-0.0000000000000002
220
-1.0
230
-0.0000000000000004
  0
LINE
  5
500
100
AcDbEntity
  8
0
  6
CONTINUOUS
100
AcDbLine
 10
360.0
 20
0.0
 30
-180.0
 11
360.0
 21
0.0
 31
120.0
210
-0.0000000000000002
220
-1.0
230
-0.0000000000000004
  0
LINE
  5
501
100
AcDbEntity
  8
0
  6
CONTINUOUS
100
AcDbLine
 10
320.0
 20
0.0
 30
-180.0
 11
320.0
 21
0.0
 31
120.0
210
-0.0000000000000002
220
-1.0
230
-0.0000000000000004
  0
LINE
  5
502
100
AcDbEntity
  8
0
  6
CONTINUOUS
100
AcDbLine
 10
320.0
 20
0.0
 30
220.0
 11
320.0
 21
0.0
 31
-120.0
210
-0.0000000000000002
220
-1.0
230
0.0000000000000001
  0
LINE
  5
503
100
AcDbEntity
  8
0
  6
CONTINUOUS
100
AcDbLine
 10
360.0
 20
0.0
 30
220.0
 11
360.0
 21
0.0
 31
-120.0
210
-0.0000000000000002
220
-1.0
230
0.0000000000000001
  0
LINE
  5
504
100
AcDbEntity
  8
0
  6
CONTINUOUS
100
AcDbLine
 10
240.0
 20
0.0
 30
220.0
 11
240.0
 21
0.0
 31
-120.0
210
-0.0000000000000002
220
-1.0
230
0.0000000000000001
  0
LINE
  5
505
100
AcDbEntity
  8
0
  6
CONTINUOUS
100
AcDbLine
 10
280.0
 20
0.0
 30
220.0
 11
280.0
 21
0.0
 31
-120.0
210
-0.0000000000000002
220
-1.0
230
0.0000000000000001
  0
LINE
  5
506
100
AcDbEntity
  8
0
  6
CONTINUOUS
100
AcDbLine
 10
160.0
 20
0.0
 30
220.0
 11
160.0
 21
0.0
 31
-120.0
210
-0.0000000000000002
220
-1.0
230
0.0000000000000001
  0
LINE
  5
507
100
AcDbEntity
  8
0
  6
CONTINUOUS
100
AcDbLine
 10
200.0
 20
0.0
 30
220.0
 11
200.0
 21
0.0
 31
-120.0
210
-0.0000000000000002
220
-1.0
230
0.0000000000000001
  0
LINE
  5
508
100
AcDbEntity
  8
0
  6
CONTINUOUS
100
AcDbLine
 10
80.0
 20
0.0
 30
220.0
 11
80.0
 21
0.0
 31
-120.0
210
-0.0000000000000002
220
-1.0
230
0.0000000000000001
  0
LINE
  5
509
100
AcDbEntity
  8
0
  6
CONTINUOUS
100
AcDbLine
 10
120.0
 20
0.0
 30
220.0
 11
120.0
 21
0.0
 31
-120.0
210
-0.0000000000000002
220
-1.0
230
0.0000000000000001
  0
LINE
  5
50A
100
AcDbEntity
  8
0
  6
CONTINUOUS
100
AcDbLine
 10
40.0
 20
0.0
 30
220.0
 11
40.0
 21
0.0
 31
-120.0
210
-0.0000000000000002
220
-1.0
230
0.0000000000000001
  0
LINE
  5
569
100
AcDbEntity
  8
0
  6
CONTINUOUS
100
AcDbLine
 10
360.0
 20
0.0
 30
200.0
 11
-360.0
 21
0.0
 31
200.0
210
0.0
220
-1.0
230
-0.0000000000000002
  0
LINE
  5
56A
100
AcDbEntity
  8
0
  6
CONTINUOUS
100
AcDbLine
 10
-360.0
 20
0.0
 30
180.0
 11
360.0
 21
0.0
 31
180.0
210
0.0000000000000002
220
-1.0
230
0.0000000000000001
  0
LINE
  5
56B
100
AcDbEntity
  8
0
  6
CONTINUOUS
100
AcDbLine
 10
-360.0
 20
0.0
 30
-180.0
 11
360.0
 21
0.0
 31
-180.0
210
0.0000000000000002
220
-1.0
230
-0.0000000000000004
  0
LINE
  5
56C
100
AcDbEntity
  8
0
  6
CONTINUOUS
100
AcDbLine
 10
360.0
 20
0.0
 30
-200.0
 11
-360.0
 21
0.0
 31
-200.0
210
0.0
220
-1.0
230
-0.0000000000000002
  0
LINE
  5
56D
100
AcDbEntity
  8
0
  6
CONTINUOUS
100
AcDbLine
 10
-360.0
 20
0.0
 30
-220.0
 11
-360.0
 21
0.0
 31
120.0
210
0.0000000000000002
220
-1.0
230
-0.0000000000000004
  0
LINE
  5
56E
100
AcDbEntity
  8
0
  6
CONTINUOUS
100
AcDbLine
 10
-280.0
 20
0.0
 30
-220.0
 11
-280.0
 21
0.0
 31
120.0
210
0.0000000000000002
220
-1.0
230
-0.0000000000000004
  0
LINE
  5
56F
100
AcDbEntity
  8
0
  6
CONTINUOUS
100
AcDbLine
 10
-240.0
 20
0.0
 30
-220.0
 11
-240.0
 21
0.0
 31
120.0
210
0.0000000000000002
220
-1.0
230
-0.0000000000000004
  0
LINE
  5
570
100
AcDbEntity
  8
0
  6
CONTINUOUS
100
AcDbLine
 10
-200.0
 20
0.0
 30
-220.0
 11
-200.0
 21
0.0
 31
120.0
210
0.0000000000000002
220
-1.0
230
-0.0000000000000004
  0
LINE
  5
571
100
AcDbEntity
  8
0
  6
CONTINUOUS
100
AcDbLine
 10
-160.0
 20
0.0
 30
-220.0
 11
-160.0
 21
0.0
 31
120.0
210
0.0000000000000002
220
-1.0
230
-0.0000000000000004
  0
LINE
  5
572
100
AcDbEntity
  8
0
  6
CONTINUOUS
100
AcDbLine
 10
-120.0
 20
0.0
 30
-220.0
 11
-120.0
 21
0.0
 31
120.0
210
0.0000000000000002
220
-1.0
230
-0.0000000000000004
  0
LINE
  5
573
100
AcDbEntity
  8
0
  6
CONTINUOUS
100
AcDbLine
 10
-80.0
 20
0.0
 30
-220.0
 11
-80.0
 21
0.0
 31
120.0
210
0.0000000000000002
220
-1.0
230
-0.0000000000000004
  0
LINE
  5
574
100
AcDbEntity
  8
0
  6
CONTINUOUS
100
AcDbLine
 10
-40.0
 20
0.0
 30
-220.0
 11
-40.0
 21
0.0
 31
120.0
210
0.0000000000000002
220
-1.0
230
-0.0000000000000004
  0
LINE
  5
575
100
AcDbEntity
  8
0
  6
CONTINUOUS
100
AcDbLine
 10
0.0
 20
0.0
 30
-220.0
 11
0.0
 21
0.0
 31
120.0
210
0.0000000000000002
220
-1.0
230
-0.0000000000000004
  0
LINE
  5
576
100
AcDbEntity
  8
0
  6
CONTINUOUS
100
AcDbLine
 10
-320.0
 20
0.0
 30
-220.0
 11
-320.0
 21
0.0
 31
120.0
210
0.0000000000000002
220
-1.0
230
-0.0000000000000004
  0
LINE
  5
577
100
AcDbEntity
  8
0
  6
CONTINUOUS
100
AcDbLine
 10
40.0
 20
0.0
 30
-220.0
 11
40.0
 21
0.0
 31
120.0
210
0.0000000000000002
220
-1.0
230
-0.0000000000000004
  0
LINE
  5
578
100
AcDbEntity
  8
0
  6
CONTINUOUS
100
AcDbLine
 10
80.0
 20
0.0
 30
-220.0
 11
80.0
 21
0.0
 31
120.0
210
0.0000000000000002
220
-1.0
230
-0.0000000000000004
  0
LINE
  5
579
100
AcDbEntity
  8
0
  6
CONTINUOUS
100
AcDbLine
 10
120.0
 20
0.0
 30
-220.0
 11
120.0
 21
0.0
 31
120.0
210
0.0000000000000002
220
-1.0
230
-0.0000000000000004
  0
LINE
  5
57A
100
AcDbEntity
  8
0
  6
CONTINUOUS
100
AcDbLine
 10
80.0
 20
0.0
 30
-220.0
 11
80.0
 21
0.0
 31
120.0
210
-0.0000000000000002
220
-1.0
230
-0.0000000000000004
  0
LINE
  5
57B
100
AcDbEntity
  8
0
  6
CONTINUOUS
100
AcDbLine
 10
120.0
 20
0.0
 30
-220.0
 11
120.0
 21
0.0
 31
120.0
210
-0.0000000000000002
220
-1.0
230
-0.0000000000000004
  0
LINE
  5
57C
100
AcDbEntity
  8
0
  6
CONTINUOUS
100
AcDbLine
 10
40.0
 20
0.0
 30
-220.0
 11
40.0
 21
0.0
 31
120.0
210
-0.0000000000000002
220
-1.0
230
-0.0000000000000004
  0
LINE
  5
57D
100
AcDbEntity
  8
0
  6
CONTINUOUS
100
AcDbLine
 10
160.0
 20
0.0
 30
-220.0
 11
160.0
 21
0.0
 31
120.0
210
0.0000000000000002
220
-1.0
230
-0.0000000000000004
  0
LINE
  5
57E
100
AcDbEntity
  8
0
  6
CONTINUOUS
100
AcDbLine
 10
200.0
 20
0.0
 30
-220.0
 11
200.0
 21
0.0
 31
120.0
210
0.0000000000000002
220
-1.0
230
-0.0000000000000004
  0
LINE
  5
57F
100
AcDbEntity
  8
0
  6
CONTINUOUS
100
AcDbLine
 10
240.0
 20
0.0
 30
-220.0
 11
240.0
 21
0.0
 31
120.0
210
0.0000000000000002
220
-1.0
230
-0.0000000000000004
  0
LINE
  5
580
100
AcDbEntity
  8
0
  6
CONTINUOUS
100
AcDbLine
 10
280.0
 20
0.0
 30
-220.0
 11
280.0
 21
0.0
 31
120.0
210
0.0000000000000002
220
-1.0
230
-0.0000000000000004
  0
LINE
  5
581
100
AcDbEntity
  8
0
  6
CONTINUOUS
100
AcDbLine
 10
320.0
 20
0.0
 30
-220.0
 11
320.0
 21
0.0
 31
120.0
210
0.0000000000000002
220
-1.0
230
-0.0000000000000004
  0
LINE
  5
582
100
AcDbEntity
  8
0
  6
CONTINUOUS
100
AcDbLine
 10
320.0
 20
0.0
 30
-220.0
 11
320.0
 21
0.0
 31
120.0
210
-0.0000000000000002
220
-1.0
230
-0.0000000000000004
  0
LINE
  5
583
100
AcDbEntity
  8
0
  6
CONTINUOUS
100
AcDbLine
 10
360.0
 20
0.0
 30
-220.0
 11
360.0
 21
0.0
 31
120.0
210
-0.0000000000000002
220
-1.0
230
-0.0000000000000004
  0
LINE
  5
584
100
AcDbEntity
  8
0
  6
CONTINUOUS
100
AcDbLine
 10
240.0
 20
0.0
 30
-220.0
 11
240.0
 21
0.0
 31
120.0
210
-0.0000000000000002
220
-1.0
230
-0.0000000000000004
  0
LINE
  5
585
100
AcDbEntity
  8
0
  6
CONTINUOUS
100
AcDbLine
 10
280.0
 20
0.0
 30
-220.0
 11
280.0
 21
0.0
 31
120.0
210
-0.0000000000000002
220
-1.0
230
-0.0000000000000004
  0
LINE
  5
586
100
AcDbEntity
  8
0
  6
CONTINUOUS
100
AcDbLine
 10
160.0
 20
0.0
 30
-220.0
 11
160.0
 21
0.0
 31
120.0
210
-0.0000000000000002
220
-1.0
230
-0.0000000000000004
  0
LINE
  5
587
100
AcDbEntity
  8
0
  6
CONTINUOUS
100
AcDbLine
 10
200.0
 20
0.0
 30
-220.0
 11
200.0
 21
0.0
 31
120.0
210
-0.0000000000000002
220
-1.0
230
-0.0000000000000004
  0
LINE
  5
588
100
AcDbEntity
  8
0
  6
CONTINUOUS
100
AcDbLine
 10
-360.0
 20
0.0
 30
-220.0
 11
360.0
 21
0.0
 31
-220.0
210
0.0000000000000002
220
-1.0
230
-0.0000000000000004
  0
ENDSEC
  0
SECTION
  2
OBJECTS
  0
DICTIONARY
  5
1A
100
AcDbDictionary
  3
ACAD_GROUP
350
18
  3
ACAD_MLINESTYLE
350
19
  0
DICTIONARY
  5
18
102
{ACAD_REACTORS
330
1A
102
}
100
AcDbDictionary
  0
DICTIONARY
  5
19
102
{ACAD_REACTORS
330
1A
102
}
100
AcDbDictionary
  3
STANDARD
350
1D
  0
MLINESTYLE
  5
1D
102
{ACAD_REACTORS
330
19
102
}
100
AcDbMlineStyle
  2
STANDARD
 70
     0
  3

 62
   256
 51
90.0
 52
90.0
 71
     2
 49
0.5
 62
   256
  6
BYLAYER
 49
-0.5
 62
   256
  6
BYLAYER
  0
ENDSEC
  0
EOF
